行きたい日付からパパッと検索!航空券の最安値が見つかる!

Málaga salida
Málaga (Málaga–Costa del Sol) salida

Mallorca yendo
Mallorca (Palma de Mallorca) llegada

Mallorca (Palma de Mallorca) salida  (–Costa del Sol) yendo

Los precios pueden cambiar dependiendo de la fecha de embarque. Por favor, presione la fecha en el calendario para seleccionar una fecha de embarque.

Departure Date

2024/4
Dom. Lun. Martes Miércoles Jueves Viernes Sábado
1------2------3------4------5------6------
7------8------9------10------11------12------13------
14------15------16------17------18------19------20------
21------22------23------24------25------26------27Search
28Search29Search30Search
Seleccione la Fecha de Regreso   Cambiar Fecha de Ida

Fecha de Vuelta

2024/4
Dom.Lun.MartesMiércolesJuevesViernesSábado
1------2------3------4------5------6------
7------8------9------10------11------12------13------
14------15------16------17------18------19------20------
21------22------23------24------25------26------27------
28------29------30------
  Seleccione la Fecha de Ida

Moneda:euro en la lecturaObtener una tarifaReadquisición

Departure Date
Fecha de Vuelta
cantidad total(Viaje ida y Vuelta/economía)

Las tasas que se muestran, hay un caso en el que los resultados de búsqueda reales difieran

  • (–Costa del Sol) salida -Mallorca (Palma de Mallorca) llegada

    abril El precio mas bajo Ver abajo -----
  • (–Costa del Sol) salida -Mallorca (Palma de Mallorca) llegada

    Mayo El precio mas bajo Ver abajo -----
  • (–Costa del Sol) salida -Mallorca (Palma de Mallorca) llegada

    junio El precio mas bajo Ver abajo -----
  • (–Costa del Sol) salida -Mallorca (Palma de Mallorca) llegada

    julio El precio mas bajo Ver abajo -----
  • (–Costa del Sol) salida -Mallorca (Palma de Mallorca) llegada

    agosto El precio mas bajo Ver abajo -----
  • Málaga salida -Mallorca yendo
    Avión Tiempo de vuelo Ver abajo

    1 Horas 25 Minutos
  • Málaga salida -Mallorca llegada
    Número de aerolíneas Ver abajo

    5
ステータス:
メッセージ1
メッセージ2
メッセージ3
メッセージ4
メッセージ5
メッセージ6
メッセージ7
メッセージ8
メッセージ9
メッセージ10
メッセージ11
メッセージ12
メッセージ13
メッセージ14
$(function() { $('.header_service_menu li').css('width', '50%'); });