行きたい日付からパパッと検索!航空券の最安値が見つかる!

Madrid salida
Madrid Barajas salida

Ibiza yendo
Ibiza llegada

IBZ salida  Barajas yendo

Los precios pueden cambiar dependiendo de la fecha de embarque. Por favor, presione la fecha en el calendario para seleccionar una fecha de embarque.

Departure Date

2019/9
Dom. Lun. Martes Miércoles Jueves Viernes Sábado
1------2------3------4------5------6------7------
8------9------10------11------12------13------14------
15------16------17------18------19------20------21------
22------23------24------25------26------2725128122
2911130124
Por favor seleccione una ruta fecha de salida de retorno   Cambiar la fecha de salida hacia afuera

Return Date

2019/9
Dom.Lun.MartesMiércolesJuevesViernesSábado
1------2------3------4------5------6------7------
8------9------10------11------12------13------14------
15------16------17------18------19------20------21------
22------23------24------25------26------27------28------
29------30------
  Por favor, seleccione una fecha de salida camino a seguir

Moneda:euro en la lecturaObtener una tarifaReadquisición

Departure Date
Return Date
cantidad total(Ida y vuelta/economía)

Las tasas que se muestran, hay un caso en el que los resultados de búsqueda reales difieran

  • Madrid salida -Ibiza yendo
    Avión Tiempo de vuelo Ver abajo

    1Horas15Minutos
  • Madrid salida -Ibiza llegada
    Número de aerolíneas Ver abajo

    5

Billetes de avión baratos y billetes de avión para Barajas salida -IBZ llegada son skyticket!

ステータス:
メッセージ1
メッセージ2
メッセージ3
メッセージ4
メッセージ5
メッセージ6
メッセージ7
メッセージ8
メッセージ9
メッセージ10
メッセージ11
メッセージ12
メッセージ13
メッセージ14